Los gotereros


guitarra clasica
los gotereros
Los 50 de joselito
introducción.

e---3-7-7-10-8-7-----7-7-7-10-8-7------7-7-7-10-8-7-----7s8—5-
B--3-------------10-8-------------10-8-------------10—8-------
G-4-----------------------------------------------------------

e-----2-5-5-5-5-5-----5-5-5-8-7-5-----5-5-----3-5-5-3—5s7-3--
B---3-------------7---------------8-7-----3-3----------------
G-2-----------------7----------------------------------------

e----7-10-7-------------------5-8-5--------------------
B--8--------8--8-8-8-7-5----7-------7--7-8-7-5---------
G------------------------5---------------------7-4-----

e--10-7---7-10-7----7-10-8-7------8-5---5-8-5----5-8-7-5---
B-------8---------8----------10-------7--------7---------8-
G----------------------------------------------------------

e--10-7---7-10-7----7-10-8-7----------2-5-2-5---2-5-3-2-3-
B-------8---------8----------10---3-3---------3-----------
G---------------------------------------------------------

G
Hombre estoy viendo una cosa en este pueblo
                                                D
no se puede tomar tragos porque hay muchos Gotereros

Y se lo pasan los domingos recorriendo no se les escapa
                      G
tienda cantina ni graneros

Hay un Leonardo un Mauricio un camilo un alejo
                                   D
un Juan Carlos hay un hijo de la negra

Que cuando ven que uno esta tomando tragos
                                           G
se le pega compañero pero no compran ni media

 Coro                      D
Sirvame un trago señor cantinero
                                      G
Tranquilo hermano que aquí no hay gotereros
                           D
Hágale coy pa’ que le sepa bueno
                                      G
Tranquilo hermano que aquí no hay gotereros

e----7-10-7-------------------5-8-5----------------
B--8--------8--8-8-8-7-5----7-------7--7-8-7-5-----
G------------------------5---------------------7-4-

e--10-7---7-10-7----7-10-8-7------8-5---5-8-5----5-8-7-5---
B-------8---------8----------10-------7--------7---------8-
G----------------------------------------------------------

e--10-7---7-10-7----7-10-8-7----------2-5-2-5---2-5-3-2-3--
B-------8---------8----------10---3-3---------3------------
G----------------------------------------------------------

G
Esos cristianos se conocen a la legua porque
                                   D
son desesperados cuando ven una cerveza

Sin conocerlos le saluda que mi hermano
                                              G
como esta don caballero y se le sientan a la mesa

Hay un Ricardo un alcelsio un jairo días y
                                            D
german un tal Gustavo los he visto muchas veces

Que si le sueltan alcohol por las espaldas
                                         G
le aseguro compadrito se desnucan por lamerse
                           D
Sirva un palito señor cantinero
                                      G
Tranquilo hermano que aquí no hay gotederos
                           D
Hágale coy pa’ que le sepa bueno
                                      G
Tranquilo hermano que aquí no hay gotederos

e----7-10-7-------------------5-8-5----------------
B--8--------8--8-8-8-7-5----7-------7--7-8-7-5-----
G------------------------5---------------------7-4-

e--10-7---7-10-7----7-10-8-7------8-5---5-8-5----5-8-7-5--
B-------8---------8----------10-------7--------7---------8-
G----------------------------------------------------------

e--10-7---7-10-7----7-10-8-7----------2-5-2-5---2-5-3-2-3--
B-------8---------8----------10---3-3---------3------------
G----------------------------------------------------------

G
Hay un miguel también hay un gabriel un
                                      D
Jesús un Ismael hay un hijo e doña jesusa

Que son capaces de perder toda la noche
                                       G
donde ven una botella untada de tape tosa

Doña Rosana me contó que ella una tarde surtió
                                            D
un poco de agua ardiente para un dolor de cabeza

Y se encontró con Alberto con Daniel con
                                           G
augusto y con Gerardo y se lamieron a la vieja
                           D
Sirvame un trago señor cantinero
                                       G
Tranquilo hermano que aquí no hay gotereros
                           D
Hágale pues pa’ que le sepa bueno
                                      G
Tranquilo hermano que aquí no hay gotereros
                           D
Sirva un palito señor cantinero
                                      G
Tranquilo hermano que aquí no hay gotereros
                           D
Hágale coy pa’ que le sepa bueno
                                      G
Tranquilo hermano que aquí no hay gotereros.

Deja un comentario

Introduce tus datos o haz clic en un icono para iniciar sesión:

Logo de WordPress.com

Estás comentando usando tu cuenta de WordPress.com. Cerrar sesión / Cambiar )

Imagen de Twitter

Estás comentando usando tu cuenta de Twitter. Cerrar sesión / Cambiar )

Foto de Facebook

Estás comentando usando tu cuenta de Facebook. Cerrar sesión / Cambiar )

Google+ photo

Estás comentando usando tu cuenta de Google+. Cerrar sesión / Cambiar )

Conectando a %s